  0
SECTION
  2
HEADER
  9
$ACADVER
  1
AC1015
  9
$ACADMAINTVER
 70
     6
  9
$DWGCODEPAGE
  3
ANSI_1254
  9
$INSBASE
 10
0.0
 20
0.0
 30
0.0
  9
$EXTMIN
 10
0.0
 20
0.0
 30
0.0
  9
$EXTMAX
 10
279.4
 20
215.9
 30
0.0
  9
$LIMMIN
 10
0.0
 20
0.0
  9
$LIMMAX
 10
279.4
 20
215.9
  9
$ORTHOMODE
 70
     0
  9
$REGENMODE
 70
     1
  9
$FILLMODE
 70
     1
  9
$QTEXTMODE
 70
     0
  9
$MIRRTEXT
 70
     1
  9
$LTSCALE
 40
1.0
  9
$ATTMODE
 70
     1
  9
$TEXTSIZE
 40
3.5
  9
$TRACEWID
 40
1.0
  9
$TEXTSTYLE
  7
Standard
  9
$CLAYER
  8
0
  9
$CELTYPE
  6
ByLayer
  9
$CECOLOR
 62
   256
  9
$CELTSCALE
 40
1.0
  9
$DISPSILH
 70
     0
  9
$DIMSCALE
 40
1.0
  9
$DIMASZ
 40
3.5
  9
$DIMEXO
 40
1.0
  9
$DIMDLI
 40
3.75
  9
$DIMRND
 40
0.0
  9
$DIMDLE
 40
0.0
  9
$DIMEXE
 40
1.0
  9
$DIMTP
 40
0.0
  9
$DIMTM
 40
0.0
  9
$DIMTXT
 40
3.5
  9
$DIMCEN
 40
2.5
  9
$DIMTSZ
 40
0.0
  9
$DIMTOL
 70
     0
  9
$DIMLIM
 70
     0
  9
$DIMTIH
 70
     1
  9
$DIMTOH
 70
     1
  9
$DIMSE1
 70
     0
  9
$DIMSE2
 70
     0
  9
$DIMTAD
 70
     1
  9
$DIMZIN
 70
     0
  9
$DIMBLK
  1

  9
$DIMASO
 70
     1
  9
$DIMSHO
 70
     1
  9
$DIMPOST
  1

  9
$DIMAPOST
  1

  9
$DIMALT
 70
     0
  9
$DIMALTD
 70
     3
  9
$DIMALTF
 40
0.0393700787
  9
$DIMLFAC
 40
1.0
  9
$DIMTOFL
 70
     1
  9
$DIMTVP
 40
0.0
  9
$DIMTIX
 70
     0
  9
$DIMSOXD
 70
     0
  9
$DIMSAH
 70
     0
  9
$DIMBLK1
  1

  9
$DIMBLK2
  1

  9
$DIMSTYLE
  2
ISO-25
  9
$DIMCLRD
 70
     0
  9
$DIMCLRE
 70
     0
  9
$DIMCLRT
 70
     0
  9
$DIMTFAC
 40
1.0
  9
$DIMGAP
 40
1.524
  9
$DIMJUST
 70
     0
  9
$DIMSD1
 70
     0
  9
$DIMSD2
 70
     0
  9
$DIMTOLJ
 70
     0
  9
$DIMTZIN
 70
     0
  9
$DIMALTZ
 70
     0
  9
$DIMALTTZ
 70
     0
  9
$DIMUPT
 70
     0
  9
$DIMDEC
 70
     2
  9
$DIMTDEC
 70
     2
  9
$DIMALTU
 70
     2
  9
$DIMALTTD
 70
     3
  9
$DIMTXSTY
  7
Standard
  9
$DIMAUNIT
 70
     0
  9
$DIMADEC
 70
     2
  9
$DIMALTRND
 40
0.0
  9
$DIMAZIN
 70
     0
  9
$DIMDSEP
 70
    44
  9
$DIMATFIT
 70
     3
  9
$DIMFRAC
 70
     0
  9
$DIMLDRBLK
  1

  9
$DIMLUNIT
 70
     2
  9
$DIMLWD
 70
    -2
  9
$DIMLWE
 70
    -2
  9
$DIMTMOVE
 70
     0
  9
$LUNITS
 70
     2
  9
$LUPREC
 70
     2
  9
$SKETCHINC
 40
1.0
  9
$FILLETRAD
 40
10.0
  9
$AUNITS
 70
     0
  9
$AUPREC
 70
     2
  9
$MENU
  1
.
  9
$ELEVATION
 40
0.0
  9
$PELEVATION
 40
0.0
  9
$THICKNESS
 40
0.0
  9
$LIMCHECK
 70
     0
  9
$CHAMFERA
 40
0.0
  9
$CHAMFERB
 40
0.0
  9
$CHAMFERC
 40
0.0
  9
$CHAMFERD
 40
0.0
  9
$SKPOLY
 70
     0
  9
$TDCREATE
 40
2460697.541045648
  9
$TDUCREATE
 40
2460697.416045648
  9
$TDUPDATE
 40
2460697.541045833
  9
$TDUUPDATE
 40
2460697.416045833
  9
$TDINDWG
 40
0.0000000116
  9
$TDUSRTIMER
 40
0.0000000116
  9
$USRTIMER
 70
     1
  9
$ANGBASE
 50
0.0
  9
$ANGDIR
 70
     0
  9
$PDMODE
 70
     0
  9
$PDSIZE
 40
-1.0
  9
$PLINEWID
 40
0.0
  9
$SPLFRAME
 70
     0
  9
$SPLINETYPE
 70
     6
  9
$SPLINESEGS
 70
     8
  9
$HANDSEED
  5
B3
  9
$SURFTAB1
 70
     6
  9
$SURFTAB2
 70
     6
  9
$SURFTYPE
 70
     6
  9
$SURFU
 70
     6
  9
$SURFV
 70
     6
  9
$UCSBASE
  2

  9
$UCSNAME
  2

  9
$UCSORG
 10
0.0
 20
0.0
 30
0.0
  9
$UCSXDIR
 10
1.0
 20
0.0
 30
0.0
  9
$UCSYDIR
 10
0.0
 20
1.0
 30
0.0
  9
$UCSORTHOREF
  2

  9
$UCSORTHOVIEW
 70
     0
  9
$UCSORGTOP
 10
0.0
 20
0.0
 30
0.0
  9
$UCSORGBOTTOM
 10
0.0
 20
0.0
 30
0.0
  9
$UCSORGLEFT
 10
0.0
 20
0.0
 30
0.0
  9
$UCSORGRIGHT
 10
0.0
 20
0.0
 30
0.0
  9
$UCSORGFRONT
 10
0.0
 20
0.0
 30
0.0
  9
$UCSORGBACK
 10
0.0
 20
0.0
 30
0.0
  9
$PUCSBASE
  2

  9
$PUCSNAME
  2

  9
$PUCSORG
 10
0.0
 20
0.0
 30
0.0
  9
$PUCSXDIR
 10
1.0
 20
0.0
 30
0.0
  9
$PUCSYDIR
 10
0.0
 20
1.0
 30
0.0
  9
$PUCSORTHOREF
  2

  9
$PUCSORTHOVIEW
 70
     0
  9
$PUCSORGTOP
 10
0.0
 20
0.0
 30
0.0
  9
$PUCSORGBOTTOM
 10
0.0
 20
0.0
 30
0.0
  9
$PUCSORGLEFT
 10
0.0
 20
0.0
 30
0.0
  9
$PUCSORGRIGHT
 10
0.0
 20
0.0
 30
0.0
  9
$PUCSORGFRONT
 10
0.0
 20
0.0
 30
0.0
  9
$PUCSORGBACK
 10
0.0
 20
0.0
 30
0.0
  9
$USERI1
 70
     0
  9
$USERI2
 70
     0
  9
$USERI3
 70
     0
  9
$USERI4
 70
     0
  9
$USERI5
 70
     0
  9
$USERR1
 40
0.0
  9
$USERR2
 40
0.0
  9
$USERR3
 40
0.0
  9
$USERR4
 40
0.0
  9
$USERR5
 40
0.0
  9
$WORLDVIEW
 70
     1
  9
$SHADEDGE
 70
     3
  9
$SHADEDIF
 70
    70
  9
$TILEMODE
 70
     1
  9
$MAXACTVP
 70
    64
  9
$PINSBASE
 10
0.0
 20
0.0
 30
0.0
  9
$PLIMCHECK
 70
     0
  9
$PEXTMIN
 10
1.0000000000E+20
 20
1.0000000000E+20
 30
1.0000000000E+20
  9
$PEXTMAX
 10
-1.0000000000E+20
 20
-1.0000000000E+20
 30
-1.0000000000E+20
  9
$PLIMMIN
 10
0.0
 20
0.0
  9
$PLIMMAX
 10
420.0
 20
297.0
  9
$UNITMODE
 70
     0
  9
$VISRETAIN
 70
     1
  9
$PLINEGEN
 70
     0
  9
$PSLTSCALE
 70
     1
  9
$TREEDEPTH
 70
  3020
  9
$CMLSTYLE
  2
Standard
  9
$CMLJUST
 70
     0
  9
$CMLSCALE
 40
20.0
  9
$PROXYGRAPHICS
 70
     1
  9
$MEASUREMENT
 70
     1
  9
$CELWEIGHT
370
    -1
  9
$ENDCAPS
280
     0
  9
$JOINSTYLE
280
     0
  9
$LWDISPLAY
290
     1
  9
$INSUNITS
 70
     4
  9
$HYPERLINKBASE
  1

  9
$STYLESHEET
  1

  9
$XEDIT
290
     1
  9
$CEPSNTYPE
380
     0
  9
$PSTYLEMODE
290
     1
  9
$FINGERPRINTGUID
  2
{6105c76a-c854-476f-b753-9d2173a30f90}
  9
$VERSIONGUID
  2
{FAEB1C32-E019-11D5-929B-00C0DF256EC4}
  9
$EXTNAMES
290
     1
  9
$PSVPSCALE
 40
0.0
  9
$OLESTARTUP
290
     0
  0
ENDSEC
  0
SECTION
  2
CLASSES
  0
CLASS
  1
ACDBDICTIONARYWDFLT
  2
AcDbDictionaryWithDefault
  3
ObjectDBX Classes
 90
        0
280
     0
281
     0
  0
CLASS
  1
VISUALSTYLE
  2
AcDbVisualStyle
  3
ObjectDBX Classes
 90
     4095
280
     0
281
     0
  0
CLASS
  1
MATERIAL
  2
AcDbMaterial
  3
ObjectDBX Classes
 90
     1153
280
     0
281
     0
  0
CLASS
  1
SCALE
  2
AcDbScale
  3
ObjectDBX Classes
 90
     1153
280
     0
281
     0
  0
CLASS
  1
TABLESTYLE
  2
AcDbTableStyle
  3
ObjectDBX Classes
 90
     4095
280
     0
281
     0
  0
CLASS
  1
MLEADERSTYLE
  2
AcDbMLeaderStyle
  3
ACDB_MLEADERSTYLE_CLASS
 90
     4095
280
     0
281
     0
  0
CLASS
  1
SUN
  2
AcDbSun
  3
SCENEOE
 90
     1153
280
     0
281
     0
  0
CLASS
  1
ACDBPLACEHOLDER
  2
AcDbPlaceHolder
  3
ObjectDBX Classes
 90
        0
280
     0
281
     0
  0
CLASS
  1
LAYOUT
  2
AcDbLayout
  3
ObjectDBX Classes
 90
        0
280
     0
281
     0
  0
ENDSEC
  0
SECTION
  2
TABLES
  0
TABLE
  2
VPORT
  5
8
330
0
100
AcDbSymbolTable
 70
     1
  0
VPORT
  5
29
330
8
100
AcDbSymbolTableRecord
100
AcDbViewportTableRecord
  2
*Active
 70
     0
 10
0.0
 20
0.0
 11
1.0
 21
1.0
 12
139.7
 22
107.95
 13
0.0
 23
0.0
 14
10.0
 24
10.0
 15
10.0
 25
10.0
 16
0.0
 26
0.0
 36
1.0
 17
0.0
 27
0.0
 37
0.0
 40
215.9
 41
1.2941176471
 42
50.0
 43
0.0
 44
0.0
 50
0.0
 51
0.0
 71
     0
 72
  2000
 73
     1
 74
     3
 75
     0
 76
     0
 77
     0
 78
     0
281
     0
 65
     1
110
0.0
120
0.0
130
0.0
111
1.0
121
0.0
131
0.0
112
0.0
122
1.0
132
0.0
 79
     0
146
0.0
  0
ENDTAB
  0
TABLE
  2
LTYPE
  5
5
330
0
100
AcDbSymbolTable
 70
     6
  0
LTYPE
  5
14
330
5
100
AcDbSymbolTableRecord
100
AcDbLinetypeTableRecord
  2
ByBlock
 70
     0
  3

 72
    65
 73
     0
 40
0.0
  0
LTYPE
  5
15
330
5
100
AcDbSymbolTableRecord
100
AcDbLinetypeTableRecord
  2
ByLayer
 70
     0
  3

 72
    65
 73
     0
 40
0.0
  0
LTYPE
  5
16
330
5
100
AcDbSymbolTableRecord
100
AcDbLinetypeTableRecord
  2
Continuous
 70
     0
  3
Solid line
 72
    65
 73
     0
 40
0.0
  0
LTYPE
  5
6E
330
5
100
AcDbSymbolTableRecord
100
AcDbLinetypeTableRecord
  2
HIDDEN
 70
     0
  3
Hidden __ __ __ __ __ __ __ __ __ __ __ __ __ __
 72
    65
 73
     2
 40
1.905
 49
1.27
 74
     0
 49
-0.635
 74
     0
  0
LTYPE
  5
6F
330
5
100
AcDbSymbolTableRecord
100
AcDbLinetypeTableRecord
  2
PHANTOM
 70
     0
  3
Phantom ______  __  __  ______  __  __  ______
 72
    65
 73
     6
 40
12.7
 49
6.35
 74
     0
 49
-1.27
 74
     0
 49
1.27
 74
     0
 49
-1.27
 74
     0
 49
1.27
 74
     0
 49
-1.27
 74
     0
  0
LTYPE
  5
70
330
5
100
AcDbSymbolTableRecord
100
AcDbLinetypeTableRecord
  2
CENTER
 70
     0
  3
Center ____ _ ____ _ ____ _ ____ _ ____ _ ____
 72
    65
 73
     4
 40
10.16
 49
6.35
 74
     0
 49
-1.27
 74
     0
 49
1.27
 74
     0
 49
-1.27
 74
     0
  0
LTYPE
  5
71
330
5
100
AcDbSymbolTableRecord
100
AcDbLinetypeTableRecord
  2
CENTERX2
 70
     0
  3
Center (2x) ________  __  ________  __  _____
 72
    65
 73
     4
 40
20.32
 49
12.7
 74
     0
 49
-2.54
 74
     0
 49
2.54
 74
     0
 49
-2.54
 74
     0
  0
LTYPE
  5
72
330
5
100
AcDbSymbolTableRecord
100
AcDbLinetypeTableRecord
  2
DOT2
 70
     0
  3
Dot (.5x) ........................................
 72
    65
 73
     2
 40
0.635
 49
0.0
 74
     0
 49
-0.635
 74
     0
  0
ENDTAB
  0
TABLE
  2
LAYER
  5
2
330
0
100
AcDbSymbolTable
 70
    17
  0
LAYER
  5
10
330
2
100
AcDbSymbolTableRecord
100
AcDbLayerTableRecord
  2
0
 70
     0
 62
     7
  6
Continuous
370
    -3
390
F
  0
LAYER
  5
73
330
2
100
AcDbSymbolTableRecord
100
AcDbLayerTableRecord
  2
FORMAT
 70
     0
 62
     7
  6
Continuous
370
    -3
390
F
  0
LAYER
  5
74
330
2
100
AcDbSymbolTableRecord
100
AcDbLayerTableRecord
  2
YARDIMCI_GEOMETRI
 70
     0
 62
    -6
  6
Continuous
290
     0
370
    -3
390
F
  0
LAYER
  5
75
330
2
100
AcDbSymbolTableRecord
100
AcDbLayerTableRecord
  2
SAYFA_CERCEVESI
 70
     0
 62
     7
  6
Continuous
370
    25
390
F
  0
LAYER
  5
76
330
2
100
AcDbSymbolTableRecord
100
AcDbLayerTableRecord
  2
ANTET
 70
     0
 62
     7
  6
Continuous
370
    -3
390
F
  0
LAYER
  5
77
330
2
100
AcDbSymbolTableRecord
100
AcDbLayerTableRecord
  2
OLCU
 70
     0
 62
   150
  6
Continuous
370
    -3
390
F
  0
LAYER
  5
78
330
2
100
AcDbSymbolTableRecord
100
AcDbLayerTableRecord
  2
METIN
 70
     0
 62
    96
  6
Continuous
370
    -3
390
F
  0
LAYER
  5
79
330
2
100
AcDbSymbolTableRecord
100
AcDbLayerTableRecord
  2
BALON
 70
     0
 62
     5
  6
Continuous
370
    -3
390
F
  0
LAYER
  5
7A
330
2
100
AcDbSymbolTableRecord
100
AcDbLayerTableRecord
  2
VURGU
 70
     0
 62
     7
  6
Continuous
370
    -3
390
F
  0
LAYER
  5
7B
330
2
100
AcDbSymbolTableRecord
100
AcDbLayerTableRecord
  2
SILIK
 70
     0
 62
     7
  6
Continuous
370
    -3
390
F
  0
LAYER
  5
7C
330
2
100
AcDbSymbolTableRecord
100
AcDbLayerTableRecord
  2
MODEL
 70
     0
 62
     7
  6
Continuous
370
    -3
390
F
  0
LAYER
  5
7D
330
2
100
AcDbSymbolTableRecord
100
AcDbLayerTableRecord
  2
DETAYLANDıRMA
 70
     0
 62
   190
  6
Continuous
370
    -3
390
F
  0
LAYER
  5
7E
330
2
100
AcDbSymbolTableRecord
100
AcDbLayerTableRecord
  2
TOLERANS
 70
     0
 62
   230
  6
Continuous
370
    -3
390
F
  0
LAYER
  5
7F
330
2
100
AcDbSymbolTableRecord
100
AcDbLayerTableRecord
  2
MERKEZ_CIZGILERI
 70
     0
 62
    30
  6
Continuous
370
    -3
390
F
  0
LAYER
  5
80
330
2
100
AcDbSymbolTableRecord
100
AcDbLayerTableRecord
  2
KESIT-DETAY_CIZGILERI
 70
     0
 62
     7
  6
Continuous
370
    -3
390
F
  0
LAYER
  5
81
330
2
100
AcDbSymbolTableRecord
100
AcDbLayerTableRecord
  2
\U+041E\U+0421\U+0415\U+0412\U+042B\U+0415
 70
     0
 62
     7
  6
Continuous
370
    -3
390
F
  0
LAYER
  5
82
330
2
100
AcDbSymbolTableRecord
100
AcDbLayerTableRecord
  2
\U+0412\U+041E\U+0414\U+042F\U+041D\U+042B\U+0415_\U+0417\U+041D\U+0410\U+041A\U+0418
 70
     0
 62
    11
  6
Continuous
370
    -3
390
F
  0
ENDTAB
  0
TABLE
  2
STYLE
  5
3
330
0
100
AcDbSymbolTable
 70
     1
  0
STYLE
  5
11
330
3
100
AcDbSymbolTableRecord
100
AcDbTextStyleTableRecord
  2
Standard
 70
     0
 40
0.0
 41
1.0
 50
0.0
 71
     0
 42
3.5
  3
txt
  4

  0
ENDTAB
  0
TABLE
  2
VIEW
  5
6
330
0
100
AcDbSymbolTable
 70
     0
  0
ENDTAB
  0
TABLE
  2
UCS
  5
7
330
0
100
AcDbSymbolTable
 70
     0
  0
ENDTAB
  0
TABLE
  2
APPID
  5
9
330
0
100
AcDbSymbolTable
 70
     1
  0
APPID
  5
12
330
9
100
AcDbSymbolTableRecord
100
AcDbRegAppTableRecord
  2
ACAD
 70
     0
  0
ENDTAB
  0
TABLE
  2
DIMSTYLE
  5
A
330
0
100
AcDbSymbolTable
 70
     1
100
AcDbDimStyleTable
  0
DIMSTYLE
105
27
330
A
100
AcDbSymbolTableRecord
100
AcDbDimStyleTableRecord
  2
ISO-25
 70
     0
 41
2.5
 42
0.625
 43
3.75
 44
1.25
 73
     0
 74
     0
 77
     1
 78
     8
140
2.5
141
2.5
143
0.0393700787
147
0.625
171
     3
172
     1
178
     0
271
     2
272
     2
274
     3
278
    44
283
     0
284
     8
340
11
  0
ENDTAB
  0
TABLE
  2
BLOCK_RECORD
  5
1
330
0
100
AcDbSymbolTable
 70
     2
  0
BLOCK_RECORD
  5
1F
330
1
100
AcDbSymbolTableRecord
100
AcDbBlockTableRecord
  2
*Model_Space
340
22
  0
BLOCK_RECORD
  5
1B
330
1
100
AcDbSymbolTableRecord
100
AcDbBlockTableRecord
  2
*Paper_Space
340
1E
  0
BLOCK_RECORD
  5
23
330
1
100
AcDbSymbolTableRecord
100
AcDbBlockTableRecord
  2
*Paper_Space0
340
26
  0
BLOCK_RECORD
  5
85
330
1
100
AcDbSymbolTableRecord
100
AcDbBlockTableRecord
  2
SW_CENTERMARKSYMBOL_0
340
0
102
{BLKREFS
331
90
102
}
  0
ENDTAB
  0
ENDSEC
  0
SECTION
  2
BLOCKS
  0
BLOCK
  5
20
330
1F
100
AcDbEntity
  8
0
100
AcDbBlockBegin
  2
*Model_Space
 70
     0
 10
0.0
 20
0.0
 30
0.0
  3
*Model_Space
  1

  0
ENDBLK
  5
21
330
1F
100
AcDbEntity
  8
0
100
AcDbBlockEnd
  0
BLOCK
  5
1C
330
1B
100
AcDbEntity
 67
     1
  8
0
100
AcDbBlockBegin
  2
*Paper_Space
 70
     0
 10
0.0
 20
0.0
 30
0.0
  3
*Paper_Space
  1

  0
ENDBLK
  5
1D
330
1B
100
AcDbEntity
 67
     1
  8
0
100
AcDbBlockEnd
  0
BLOCK
  5
24
330
23
100
AcDbEntity
  8
0
100
AcDbBlockBegin
  2
*Paper_Space0
 70
     0
 10
0.0
 20
0.0
 30
0.0
  3
*Paper_Space0
  1

  0
ENDBLK
  5
25
330
23
100
AcDbEntity
  8
0
100
AcDbBlockEnd
  0
BLOCK
  5
86
330
85
100
AcDbEntity
  8
0
100
AcDbBlockBegin
  2
SW_CENTERMARKSYMBOL_0
 70
     0
 10
0.0
 20
0.0
 30
0.0
  3
SW_CENTERMARKSYMBOL_0
  1

  0
LINE
  5
88
330
85
100
AcDbEntity
  8
FORMAT
 62
     0
100
AcDbLine
 10
0.0
 20
0.0
 30
0.0
 11
0.0
 21
2.5
 31
0.0
  0
LINE
  5
89
330
85
100
AcDbEntity
  8
FORMAT
 62
     0
100
AcDbLine
 10
0.0
 20
0.0
 30
0.0
 11
-2.5
 21
0.0
 31
0.0
  0
LINE
  5
8A
330
85
100
AcDbEntity
  8
FORMAT
 62
     0
100
AcDbLine
 10
0.0
 20
0.0
 30
0.0
 11
0.0
 21
-2.5
 31
0.0
  0
LINE
  5
8B
330
85
100
AcDbEntity
  8
FORMAT
 62
     0
100
AcDbLine
 10
0.0
 20
0.0
 30
0.0
 11
2.5
 21
0.0
 31
0.0
  0
LINE
  5
8C
330
85
100
AcDbEntity
  8
FORMAT
 62
     0
100
AcDbLine
 10
0.0
 20
5.0
 30
0.0
 11
0.0
 21
227.5
 31
0.0
  0
LINE
  5
8D
330
85
100
AcDbEntity
  8
FORMAT
 62
     0
100
AcDbLine
 10
-5.0
 20
0.0
 30
0.0
 11
-227.5
 21
0.0
 31
0.0
  0
LINE
  5
8E
330
85
100
AcDbEntity
  8
FORMAT
 62
     0
100
AcDbLine
 10
0.0
 20
-5.0
 30
0.0
 11
0.0
 21
-227.5
 31
0.0
  0
LINE
  5
8F
330
85
100
AcDbEntity
  8
FORMAT
 62
     0
100
AcDbLine
 10
5.0
 20
0.0
 30
0.0
 11
227.5
 21
0.0
 31
0.0
  0
ENDBLK
  5
87
330
85
100
AcDbEntity
  8
0
100
AcDbBlockEnd
  0
ENDSEC
  0
SECTION
  2
ENTITIES
  0
CIRCLE
  5
83
330
1F
100
AcDbEntity
  8
0
  6
Continuous
 62
     7
370
    25
100
AcDbCircle
 10
142.8220984182
 20
108.1777550595
 30
0.0
 40
184.1000000000001
  0
CIRCLE
  5
84
330
1F
100
AcDbEntity
  8
0
  6
Continuous
 62
     7
370
    25
100
AcDbCircle
 10
142.8220984182
 20
108.1777550595
 30
0.0
 40
225.0000000000001
  0
INSERT
  5
90
330
1F
100
AcDbEntity
  8
FORMAT
100
AcDbBlockReference
  2
SW_CENTERMARKSYMBOL_0
 10
142.8220984182
 20
108.1777550595
 30
0.0
  0
ARC
  5
91
330
1F
100
AcDbEntity
  8
0
  6
Continuous
 62
     7
370
    25
100
AcDbCircle
 10
136.345102878
 20
1088.6759990686
 30
0.0
 40
675.0000000000002
100
AcDbArc
 50
270.5497928941
 51
290.0554182084
  0
ARC
  5
92
330
1F
100
AcDbEntity
  8
0
  6
Continuous
 62
     7
370
    25
100
AcDbCircle
 10
149.2990939584
 20
1088.6759990686
 30
0.0
 40
675.0000000000002
100
AcDbArc
 50
249.9445817916
 51
269.4502071059
  0
LINE
  5
93
330
1F
100
AcDbEntity
  8
0
  6
Continuous
 62
     7
370
    25
100
AcDbLine
 10
-82.1779015818
 20
683.8902843085
 30
0.0
 11
-82.1779015818
 21
454.6070749478
 31
0.0
  0
LINE
  5
94
330
1F
100
AcDbEntity
  8
0
  6
Continuous
 62
     7
370
    25
100
AcDbLine
 10
367.8220984182
 20
454.6070749478
 30
0.0
 11
367.8220984182
 21
683.8902843085
 31
0.0
  0
LINE
  5
95
330
1F
100
AcDbEntity
  8
0
  6
Continuous
 62
     7
370
    25
100
AcDbLine
 10
142.8220984182
 20
454.6070749478
 30
0.0
 11
367.8220984182
 21
454.6070749478
 31
0.0
  0
LINE
  5
96
330
1F
100
AcDbEntity
  8
0
  6
Continuous
 62
     7
370
    25
100
AcDbLine
 10
-82.1779015818
 20
454.6070749478
 30
0.0
 11
142.8220984182
 21
454.6070749478
 31
0.0
  0
LINE
  5
97
330
1F
100
AcDbEntity
  8
0
  6
Continuous
 62
     7
370
    25
100
AcDbLine
 10
142.8220984182
 20
683.8902843085
 30
0.0
 11
367.8220984182
 21
683.8902843085
 31
0.0
  0
LINE
  5
98
330
1F
100
AcDbEntity
  8
0
  6
Continuous
 62
     7
370
    25
100
AcDbLine
 10
-82.1779015818
 20
683.8902843085
 30
0.0
 11
142.8220984182
 21
683.8902843085
 31
0.0
  0
LINE
  5
99
330
1F
100
AcDbEntity
  8
0
  6
Continuous
 62
     7
370
    25
100
AcDbLine
 10
367.8220984182
 20
-429.9465411843
 30
0.0
 11
367.8220984182
 21
-200.6633318235
 31
0.0
  0
LINE
  5
9A
330
1F
100
AcDbEntity
  8
0
  6
Continuous
 62
     7
370
    25
100
AcDbLine
 10
-82.1779015818
 20
-200.6633318235
 30
0.0
 11
-82.1779015818
 21
-429.9465411843
 31
0.0
  0
ARC
  5
9B
330
1F
100
AcDbEntity
  8
0
  6
Continuous
 62
     7
370
    25
100
AcDbCircle
 10
149.2990939584
 20
-834.7322559443
 30
0.0
 40
675.0000000000001
100
AcDbArc
 50
90.5497928941
 51
110.0554182084
  0
ARC
  5
9C
330
1F
100
AcDbEntity
  8
0
  6
Continuous
 62
     7
370
    25
100
AcDbCircle
 10
136.345102878
 20
-834.7322559443
 30
0.0
 40
675.0000000000001
100
AcDbArc
 50
69.9445817916
 51
89.4502071059
  0
LINE
  5
9D
330
1F
100
AcDbEntity
  8
0
  6
Continuous
 62
     7
370
    25
100
AcDbLine
 10
367.8220984182
 20
-429.9465411843
 30
0.0
 11
-82.1779015818
 21
-429.9465411843
 31
0.0
  0
LINE
  5
9E
330
1F
100
AcDbEntity
  8
0
  6
Continuous
 62
     7
370
    25
100
AcDbLine
 10
367.8220984182
 20
-200.6633318235
 30
0.0
 11
-82.1779015818
 21
-200.6633318235
 31
0.0
  0
ARC
  5
9F
330
1F
100
AcDbEntity
  8
0
  6
Continuous
 62
     7
370
    25
100
AcDbCircle
 10
1139.1280413491
 20
114.6547505997
 30
0.0
 40
675.0000000000002
100
AcDbArc
 50
180.5497928941
 51
200.0554182084
  0
ARC
  5
A0
330
1F
100
AcDbEntity
  8
0
  6
Continuous
 62
     7
370
    25
100
AcDbCircle
 10
1139.1280413491
 20
101.7007595193
 30
0.0
 40
675.0000000000002
100
AcDbArc
 50
159.9445817916
 51
179.4502071059
  0
LINE
  5
A1
330
1F
100
AcDbEntity
  8
0
  6
Continuous
 62
     7
370
    25
100
AcDbLine
 10
734.342326589
 20
333.1777550595
 30
0.0
 11
505.0591172283
 21
333.1777550595
 31
0.0
  0
LINE
  5
A2
330
1F
100
AcDbEntity
  8
0
  6
Continuous
 62
     7
370
    25
100
AcDbLine
 10
505.0591172283
 20
-116.8222449405
 30
0.0
 11
734.342326589
 21
-116.8222449405
 31
0.0
  0
LINE
  5
A3
330
1F
100
AcDbEntity
  8
0
  6
Continuous
 62
     7
370
    25
100
AcDbLine
 10
505.0591172283
 20
333.1777550595
 30
0.0
 11
505.0591172283
 21
-116.8222449405
 31
0.0
  0
LINE
  5
A4
330
1F
100
AcDbEntity
  8
0
  6
Continuous
 62
     7
370
    25
100
AcDbLine
 10
734.342326589
 20
333.1777550595
 30
0.0
 11
734.342326589
 21
-116.8222449405
 31
0.0
  0
ARC
  5
A5
330
1F
100
AcDbEntity
  8
0
  6
Continuous
 62
     7
370
    25
100
AcDbCircle
 10
-843.6893353994
 20
101.7007595193
 30
0.0
 40
675.0000000000002
100
AcDbArc
 50
0.5497928941
 51
20.0554182084
  0
ARC
  5
A6
330
1F
100
AcDbEntity
  8
0
  6
Continuous
 62
     7
370
    25
100
AcDbCircle
 10
-843.6893353994
 20
114.6547505997
 30
0.0
 40
675.0000000000002
100
AcDbArc
 50
339.9445817916
 51
359.4502071059
  0
LINE
  5
A7
330
1F
100
AcDbEntity
  8
0
  6
Continuous
 62
     7
370
    25
100
AcDbLine
 10
-438.9036206394
 20
-116.8222449405
 30
0.0
 11
-209.6204112786
 21
-116.8222449405
 31
0.0
  0
LINE
  5
A8
330
1F
100
AcDbEntity
  8
0
  6
Continuous
 62
     7
370
    25
100
AcDbLine
 10
-209.6204112786
 20
333.1777550595
 30
0.0
 11
-438.9036206394
 21
333.1777550595
 31
0.0
  0
LINE
  5
A9
330
1F
100
AcDbEntity
  8
0
  6
Continuous
 62
     7
370
    25
100
AcDbLine
 10
-209.6204112786
 20
-116.8222449405
 30
0.0
 11
-209.6204112786
 21
333.1777550595
 31
0.0
  0
LINE
  5
AA
330
1F
100
AcDbEntity
  8
0
  6
Continuous
 62
     7
370
    25
100
AcDbLine
 10
-438.9036206394
 20
-116.8222449405
 30
0.0
 11
-438.9036206394
 21
333.1777550595
 31
0.0
  0
LINE
  5
AB
330
1F
100
AcDbEntity
  8
0
  6
Continuous
 62
     7
370
    25
100
AcDbLine
 10
468.4155179282
 20
-528.814080515
 30
0.0
 11
630.5432300794
 21
-622.4084165284
 31
0.0
  0
LINE
  5
AC
330
1F
100
AcDbEntity
  8
0
  6
Continuous
 62
     7
370
    25
100
AcDbLine
 10
855.5249449225
 20
-232.6864284571
 30
0.0
 11
693.3972327713
 21
-139.0920924437
 31
0.0
  0
LWPOLYLINE
  5
AD
330
1F
100
AcDbEntity
  8
0
  6
Continuous
 62
     7
370
    25
100
AcDbPolyline
 90
      160
 70
   128
 43
0.0
 10
580.9063753497
 20
-517.6747691536
 10
587.191837669
 20
-513.9028191927
 10
593.4674859849
 20
-509.8498990855
 10
599.7235216177
 20
-505.5223369857
 10
605.9501765103
 20
-500.9268898676
 10
612.1377284803
 20
-496.0707329766
 10
618.2765163997
 20
-490.9614486251
 10
624.3569552801
 20
-485.6070143541
 10
630.3695512377
 20
-480.0157904771
 10
636.3049163178
 20
-474.1965070265
 10
642.1537831524
 20
-468.1582501226
 10
647.9070194302
 20
-461.9104477868
 10
653.5556421558
 20
-455.4628552208
 10
659.0908316752
 20
-448.825539575
 10
664.5039454471
 20
-442.0088642298
 10
669.786531537
 20
-435.0234726147
 10
674.9303418136
 20
-427.8802715894
 10
679.927344828
 20
-420.5904144144
 10
684.769738353
 20
-413.1652833363
 10
689.449961566
 20
-405.6164718158
 10
693.960706854
 20
-397.9557664261
 10
698.2949312237
 20
-390.1951284493
 10
702.4458672983
 20
-382.3466752002
 10
706.4070338838
 20
-374.422661107
 10
710.1722460889
 20
-366.435458577
 10
713.7356249816
 20
-358.397538679
 10
717.0916067687
 20
-350.3214516705
 10
720.2349514832
 20
-342.2198074028
 10
723.1607511653
 20
-334.1052556318
 10
725.8644375262
 20
-325.9904662666
 10
728.3417890805
 20
-317.8881095877
 10
730.588937738
 20
-309.8108364632
 10
732.6023748426
 20
-301.7712585962
 10
734.3789566515
 20
-293.7819288333
 10
735.915909243
 20
-285.8553215644
 10
737.210832848
 20
-278.0038132459
 10
738.2617055971
 20
-270.239663076
 10
739.0668866772
 20
-262.5749938534
 10
739.6251188936
 20
-255.0217730494
 10
739.9355306331
 20
-247.5917941217
 10
739.9976372245
 20
-240.2966581002
 10
739.8113416957
 20
-233.147755474
 10
739.3769349252
 20
-226.1562484058
 10
738.6950951874
 20
-219.333053304
 10
737.7668870943
 20
-212.6888237778
 10
736.5937599325
 20
-206.2339340029
 10
735.177545401
 20
-199.9784625234
 10
733.5204547504
 20
-193.9321765154
 10
731.6250753313
 20
-188.1045165369
 10
729.4943665536
 20
-182.5045817871
 10
727.131655266
 20
-177.1411158993
 10
724.5406305618
 20
-172.0224932889
 10
721.7253380186
 20
-167.1567060774
 10
718.6901733813
 20
-162.5513516141
 10
715.4398756993
 20
-158.2136206131
 10
711.9795199266
 20
-154.1502859265
 10
708.314508998
 20
-150.3676919691
 10
704.450565393
 20
-146.8717448123
 10
700.3937222008
 20
-143.6679029627
 10
696.1503137004
 20
-140.7611688389
 10
691.7269654706
 20
-138.1560809612
 10
687.1305840446
 20
-135.8567068652
 10
682.3683461262
 20
-133.8666367505
 10
677.4476873847
 20
-132.1889778753
 10
672.3762908447
 20
-130.8263497049
 10
667.1620748897
 20
-129.7808798213
 10
661.813180899
 20
-129.0542006018
 10
656.3379605357
 20
-128.6474466695
 10
650.7449627064
 20
-128.5612531226
 10
645.0429202133
 20
-128.7957545421
 10
639.2407361188
 20
-129.3505847816
 10
633.3474698447
 20
-130.2248775399
 10
627.3723230267
 20
-131.4172677123
 10
621.3246251473
 20
-132.9258935234
 10
615.2138189687
 20
-134.7483994328
 10
609.0494457894
 20
-136.8819398141
 10
602.8411305464
 20
-139.3231833972
 10
596.598566787
 20
-142.0683184699
 10
590.3315015335
 20
-145.1130588298
 10
584.0497200642
 20
-148.4526504762
 10
577.7630306353
 20
-152.0818790332
 10
571.481249166
 20
-155.9950778912
 10
565.2141839125
 20
-160.1861370548
 10
558.9716201531
 20
-164.6485126824
 10
552.7633049101
 20
-169.3752373045
 10
546.5989317308
 20
-174.3589307014
 10
540.4881255522
 20
-179.5918114276
 10
534.4404276727
 20
-185.065708961
 10
528.4652808547
 20
-190.7720764604
 10
522.5720145806
 20
-196.7020041104
 10
516.7698304862
 20
-202.8462330328
 10
511.0677879931
 20
-209.1951697435
 10
505.4747901638
 20
-215.7389011315
 10
499.9995698005
 20
-222.4672099372
 10
494.6506758098
 20
-229.3695907048
 10
489.4364598548
 20
-236.4352661863
 10
484.3650633147
 20
-243.6532041681
 10
479.4444045733
 20
-251.0121346969
 10
474.6821666549
 20
-258.5005676763
 10
470.0857852288
 20
-266.106810807
 10
465.662436999
 20
-273.8189878433
 10
461.4190284987
 20
-281.6250571363
 10
457.3621853065
 20
-289.5128304354
 10
453.4982417014
 20
-297.4699919189
 10
449.8332307728
 20
-305.4841174238
 10
446.3728750002
 20
-313.5426938444
 10
443.1225773182
 20
-321.6331386703
 10
440.0874126809
 20
-329.7428196321
 10
437.2721201377
 20
-337.8590744259
 10
434.6810954335
 20
-345.9692304832
 10
432.3183841459
 20
-354.060624758
 10
430.1876753682
 20
-362.1206234987
 10
428.292295949
 20
-370.136641974
 10
426.6352052985
 20
-378.0961641226
 10
425.2189907669
 20
-385.9867620957
 10
424.0458636052
 20
-393.796115661
 10
423.1176555121
 20
-401.51203144
 10
422.4358157743
 20
-409.1224619462
 10
422.0014090038
 20
-416.6155243958
 10
421.815113475
 20
-423.9795192612
 10
421.8772200664
 20
-431.2029485385
 10
422.1876318058
 20
-438.2745337006
 10
422.7458640223
 20
-445.1832333064
 10
423.5510451024
 20
-451.9182602419
 10
424.6019178515
 20
-458.4690985618
 10
425.8968414565
 20
-464.8255199098
 10
427.433794048
 20
-470.9775994884
 10
429.2103758568
 20
-476.9157315558
 10
431.2238129615
 20
-482.6306444236
 10
433.470961619
 20
-488.1134149338
 10
435.9483131733
 20
-493.355482391
 10
438.6519995342
 20
-498.3486619292
 10
441.5777992163
 20
-503.0851572912
 10
444.7211439308
 20
-507.5575730019
 10
448.0771257179
 20
-511.758925915
 10
451.6405046106
 20
-515.6826561166
 10
455.4057168156
 20
-519.3226371678
 10
459.3668834012
 20
-522.6731856703
 10
463.5178194757
 20
-525.7290701403
 10
467.8520438455
 20
-528.485519177
 10
472.3627891335
 20
-530.9382289125
 10
477.0430123465
 20
-533.0833697316
 10
481.8854058715
 20
-534.9175922516
 10
486.8824088858
 20
-536.4380325517
 10
492.0262191625
 20
-537.642316645
 10
497.3088052523
 20
-538.5285641847
 10
502.7219190243
 20
-539.0953914006
 10
508.2571085437
 20
-539.3419132591
 10
513.9057312692
 20
-539.2677448458
 10
519.6589675471
 20
-538.8730019658
 10
525.5078343817
 20
-538.1583009632
 10
531.4431994618
 20
-537.1247577588
 10
537.4557954194
 20
-535.7739861076
 10
543.5362342997
 20
-534.1080950792
 10
549.6750222192
 20
-532.1296857647
 10
555.8625741892
 20
-529.8418472155
 10
562.0892290818
 20
-527.2481516197
 10
568.3452647146
 20
-524.3526487252
 10
574.6209130305
 20
-521.1598595161
 10
580.9063753497
 20
-517.6747691536
  0
LWPOLYLINE
  5
AE
330
1F
100
AcDbEntity
  8
0
  6
Continuous
 62
     7
370
    25
100
AcDbPolyline
 90
       61
 70
   128
 43
0.0
 10
743.0340875009
 20
-611.269105167
 10
749.3195498202
 20
-607.4971552062
 10
755.5951981361
 20
-603.444235099
 10
761.8512337689
 20
-599.1166729991
 10
768.0778886615
 20
-594.5212258811
 10
774.2654406315
 20
-589.66506899
 10
780.404228551
 20
-584.5557846385
 10
786.4846674313
 20
-579.2013503675
 10
792.4972633889
 20
-573.6101264905
 10
798.432628469
 20
-567.7908430399
 10
804.2814953036
 20
-561.7525861361
 10
810.0347315815
 20
-555.5047838003
 10
815.683354307
 20
-549.0571912343
 10
821.2185438264
 20
-542.4198755884
 10
826.6316575983
 20
-535.6032002433
 10
831.9142436882
 20
-528.6178086281
 10
837.0580539648
 20
-521.4746076028
 10
842.0550569792
 20
-514.1847504278
 10
846.8974505042
 20
-506.7596193497
 10
851.5776737172
 20
-499.2108078293
 10
856.0884190052
 20
-491.5501024396
 10
860.4226433749
 20
-483.7894644627
 10
864.5735794495
 20
-475.9410112136
 10
868.5347460351
 20
-468.0169971204
 10
872.2999582401
 20
-460.0297945905
 10
875.8633371328
 20
-451.9918746924
 10
879.2193189199
 20
-443.9157876839
 10
882.3626636344
 20
-435.8141434163
 10
885.2884633165
 20
-427.6995916452
 10
887.9921496774
 20
-419.58480228
 10
890.4695012317
 20
-411.4824456011
 10
892.7166498892
 20
-403.4051724766
 10
894.7300869939
 20
-395.3655946097
 10
896.5066688027
 20
-387.3762648467
 10
898.0436213942
 20
-379.4496575779
 10
899.3385449992
 20
-371.5981492593
 10
900.3894177483
 20
-363.8339990894
 10
901.1945988284
 20
-356.1693298669
 10
901.7528310449
 20
-348.6161090629
 10
902.0632427843
 20
-341.1861301351
 10
902.1253493757
 20
-333.8909941136
 10
901.9390538469
 20
-326.7420914874
 10
901.5046470764
 20
-319.7505844192
 10
900.8228073386
 20
-312.9273893174
 10
899.8945992455
 20
-306.2831597912
 10
898.7214720837
 20
-299.8282700163
 10
897.3052575522
 20
-293.5727985368
 10
895.6481669016
 20
-287.5265125289
 10
893.7527874825
 20
-281.6988525503
 10
891.6220787048
 20
-276.0989178005
 10
889.2593674172
 20
-270.7354519127
 10
886.668342713
 20
-265.6168293023
 10
883.8530501698
 20
-260.7510420909
 10
880.8178855325
 20
-256.1456876275
 10
877.5675878505
 20
-251.8079566265
 10
874.1072320779
 20
-247.7446219399
 10
870.4422211492
 20
-243.9620279825
 10
866.5782775442
 20
-240.4660808258
 10
862.521434352
 20
-237.2622389761
 10
858.2780258516
 20
-234.3555048523
 10
855.5249449225
 20
-232.6864284571
  0
LWPOLYLINE
  5
AF
330
1F
100
AcDbEntity
  8
0
  6
Continuous
 62
     7
370
    25
100
AcDbPolyline
 90
       21
 70
   128
 43
0.0
 10
630.5432300794
 20
-622.4084165284
 10
634.4905012847
 20
-624.5325649259
 10
639.1707244977
 20
-626.677705745
 10
644.0131180227
 20
-628.511928265
 10
649.0101210371
 20
-630.0323685651
 10
654.1539313137
 20
-631.2366526584
 10
659.4365174036
 20
-632.1229001981
 10
664.8496311755
 20
-632.689727414
 10
670.3848206949
 20
-632.9362492726
 10
676.0334434204
 20
-632.8620808593
 10
681.7866796983
 20
-632.4673379792
 10
687.6355465329
 20
-631.7526369766
 10
693.570911613
 20
-630.7190937722
 10
699.5835075706
 20
-629.368322121
 10
705.6639464509
 20
-627.7024310926
 10
711.8027343704
 20
-625.7240217782
 10
717.9902863404
 20
-623.4361832289
 10
724.216941233
 20
-620.8424876331
 10
730.4729768658
 20
-617.9469847386
 10
736.7486251817
 20
-614.7541955295
 10
743.0340875009
 20
-611.269105167
  0
LWPOLYLINE
  5
B0
330
1F
100
AcDbEntity
  8
0
  6
Continuous
 62
     7
370
    25
100
AcDbPolyline
 90
      145
 70
   128
 43
0.0
 10
580.9063753497
 20
-484.2782499475
 10
586.5846755921
 20
-480.8571607457
 10
592.2521668672
 20
-477.1564312892
 10
597.8980607833
 20
-473.1831061266
 10
603.5116100604
 20
-468.9447487083
 10
609.0821289885
 20
-464.4494269885
 10
614.5990137681
 20
-459.7056980677
 10
620.0517626955
 20
-454.7225919034
 10
625.4299961532
 20
-449.5095941214
 10
630.7234763682
 20
-444.0766279593
 10
635.9221269
 20
-438.434035377
 10
641.0160518217
 20
-432.5925573701
 10
645.995554558
 20
-426.5633135241
 10
650.8511563421
 20
-420.3577808474
 10
655.5736142603
 20
-413.9877719239
 10
660.1539388453
 20
-407.4654124279
 10
664.5834111892
 20
-400.8031180412
 10
668.8535995394
 20
-394.01357082
 10
672.9563753497
 20
-387.1096950531
 10
676.8839287533
 20
-380.1046326607
 10
680.628783429
 20
-373.011718177
 10
684.1838108331
 20
-365.8444533679
 10
687.5422437688
 20
-358.6164815294
 10
690.6976892681
 20
-351.3415615166
 10
693.6441407613
 20
-344.0335415533
 10
696.3759895105
 20
-336.7063328708
 10
698.8880352862
 20
-329.3738832273
 10
701.1754962666
 20
-322.0501503575
 10
703.2340181397
 20
-314.7490754031
 10
705.0596823921
 20
-307.4845563753
 10
706.6490137681
 20
-300.2704216989
 10
707.9989868851
 20
-293.1204038893
 10
709.1070319927
 20
-286.0481134118
 10
709.9710398638
 20
-279.0670127733
 10
710.5893658105
 20
-272.1903908955
 10
710.9608328141
 20
-265.4313378192
 10
711.0847337662
 20
-258.802719786
 10
710.9608328141
 20
-252.3171547471
 10
710.5893658105
 20
-245.9869883441
 10
709.9710398638
 20
-239.8242704085
 10
709.1070319927
 20
-233.8407320243
 10
707.9989868851
 20
-228.0477631968
 10
706.6490137681
 20
-222.4563911715
 10
705.0596823921
 20
-217.0772594427
 10
703.2340181397
 20
-211.9206074934
 10
701.1754962666
 20
-206.9962513038
 10
698.8880352862
 20
-202.3135646657
 10
696.3759895105
 20
-197.8814613393
 10
693.6441407613
 20
-193.7083780851
 10
690.6976892681
 20
-189.8022586044
 10
687.5422437688
 20
-186.1705384175
 10
684.1838108331
 20
-182.8201307102
 10
680.628783429
 20
-179.7574131741
 10
676.8839287533
 20
-176.9882158661
 10
672.9563753497
 20
-174.5178101105
 10
668.8535995394
 20
-172.3508984652
 10
664.5834111892
 20
-170.4916057697
 10
660.1539388453
 20
-168.9434712933
 10
655.5736142603
 20
-167.7094419979
 10
650.8511563421
 20
-166.7918669284
 10
645.995554558
 20
-166.1924927412
 10
641.0160518217
 20
-165.912460379
 10
635.9221269
 20
-165.9523028995
 10
630.7234763682
 20
-166.31194446
 10
625.4299961532
 20
-166.9907004624
 10
620.0517626955
 20
-167.9872788562
 10
614.5990137681
 20
-169.2997825976
 10
609.0821289885
 20
-170.9257132613
 10
603.5116100604
 20
-172.8619757957
 10
597.8980607833
 20
-175.1048844152
 10
592.2521668672
 20
-177.6501696156
 10
586.5846755921
 20
-180.492986302
 10
580.9063753497
 20
-183.6279230111
 10
575.2280751074
 20
-187.0490122129
 10
569.5605838323
 20
-190.7497416695
 10
563.9146899162
 20
-194.723066832
 10
558.301140639
 20
-198.9614242503
 10
552.730621711
 20
-203.4567459701
 10
547.2137369314
 20
-208.2004748909
 10
541.760988004
 20
-213.1835810553
 10
536.3827545462
 20
-218.3965788372
 10
531.0892743313
 20
-223.8295449993
 10
525.8906237995
 20
-229.4721375816
 10
520.7966988777
 20
-235.3136155885
 10
515.8171961415
 20
-241.3428594345
 10
510.9615943573
 20
-247.5483921113
 10
506.2391364392
 20
-253.9184010347
 10
501.6588118541
 20
-260.4407605307
 10
497.2293395103
 20
-267.1030549174
 10
492.9591511601
 20
-273.8926021387
 10
488.8563753497
 20
-280.7964779055
 10
484.9288219461
 20
-287.8015402979
 10
481.1839672705
 20
-294.8944547816
 10
477.6289398664
 20
-302.0617195907
 10
474.2705069307
 20
-309.2896914292
 10
471.1150614313
 20
-316.564611442
 10
468.1686099381
 20
-323.8726314053
 10
465.436761189
 20
-331.1998400878
 10
462.9247154133
 20
-338.5322897313
 10
460.6372544329
 20
-345.8560226011
 10
458.5787325598
 20
-353.1570975555
 10
456.7530683074
 20
-360.4216165833
 10
455.1637369314
 20
-367.6357512597
 10
453.8137638143
 20
-374.7857690693
 10
452.7057187068
 20
-381.8580595468
 10
451.8417108357
 20
-388.8391601854
 10
451.223384889
 20
-395.7157820631
 10
450.8519178853
 20
-402.4748351394
 10
450.7280169333
 20
-409.1034531726
 10
450.8519178853
 20
-415.5890182115
 10
451.223384889
 20
-421.9191846145
 10
451.8417108357
 20
-428.0819025501
 10
452.7057187068
 20
-434.0654409343
 10
453.8137638143
 20
-439.8584097618
 10
455.1637369314
 20
-445.4497817872
 10
456.7530683074
 20
-450.8289135159
 10
458.5787325598
 20
-455.9855654652
 10
460.6372544329
 20
-460.9099216548
 10
462.9247154133
 20
-465.5926082929
 10
465.436761189
 20
-470.0247116193
 10
468.1686099381
 20
-474.1977948735
 10
471.1150614313
 20
-478.1039143542
 10
474.2705069307
 20
-481.7356345411
 10
477.6289398664
 20
-485.0860422484
 10
481.1839672705
 20
-488.1487597845
 10
484.9288219461
 20
-490.9179570926
 10
488.8563753497
 20
-493.3883628481
 10
492.9591511601
 20
-495.5552744934
 10
497.2293395103
 20
-497.4145671889
 10
501.6588118541
 20
-498.9627016653
 10
506.2391364392
 20
-500.1967309607
 10
510.9615943574
 20
-501.1143060302
 10
515.8171961415
 20
-501.7136802174
 10
520.7966988777
 20
-501.9937125796
 10
525.8906237995
 20
-501.9538700592
 10
531.0892743313
 20
-501.5942284986
 10
536.3827545462
 20
-500.9154724962
 10
541.760988004
 20
-499.9188941024
 10
547.2137369314
 20
-498.606390361
 10
552.730621711
 20
-496.9804596973
 10
558.3011406391
 20
-495.0441971629
 10
563.9146899162
 20
-492.8012885434
 10
569.5605838323
 20
-490.256003343
 10
575.2280751074
 20
-487.4131866566
 10
580.9063753497
 20
-484.2782499475
  0
LWPOLYLINE
  5
B1
330
1F
100
AcDbEntity
  8
0
  6
Continuous
 62
     7
370
    25
100
AcDbPolyline
 90
       33
 70
   128
 43
0.0
 10
710.5530389393
 20
-272.6823090485
 10
705.3360461535
 20
-276.3638780143
 10
699.7224968764
 20
-280.6022354326
 10
694.1519779483
 20
-285.0975571524
 10
688.6350931687
 20
-289.8412860732
 10
683.1823442413
 20
-294.8243922375
 10
677.8041107836
 20
-300.0373900195
 10
672.5106305686
 20
-305.4703561816
 10
667.3119800368
 20
-311.1129487639
 10
662.218055115
 20
-316.9544267708
 10
657.2385523788
 20
-322.9836706167
 10
652.3829505947
 20
-329.1892032935
 10
647.6604926765
 20
-335.559212217
 10
643.0801680914
 20
-342.081571713
 10
638.6506957476
 20
-348.7438660997
 10
634.3805073974
 20
-355.5334133209
 10
630.277731587
 20
-362.4372890877
 10
626.3501781835
 20
-369.4423514802
 10
622.6053235078
 20
-376.5352659639
 10
619.0502961037
 20
-383.702530773
 10
615.691863168
 20
-390.9305026115
 10
612.5364176687
 20
-398.2054226243
 10
609.5899661755
 20
-405.5134425876
 10
606.8581174263
 20
-412.8406512701
 10
604.3460716506
 20
-420.1731009136
 10
602.0586106702
 20
-427.4968337834
 10
600.0000887971
 20
-434.7979087378
 10
598.1744245447
 20
-442.0624277656
 10
596.5850931687
 20
-449.276562442
 10
595.2351200516
 20
-456.4265802516
 10
594.1270749441
 20
-463.4988707291
 10
593.263067073
 20
-470.4799713676
 10
592.6810679975
 20
-476.8646750924
  0
ENDSEC
  0
SECTION
  2
OBJECTS
  0
DICTIONARY
  5
C
330
0
100
AcDbDictionary
281
     1
  3
ACAD_GROUP
350
D
  3
ACAD_LAYOUT
350
1A
  3
ACAD_MLINESTYLE
350
17
  3
ACAD_PLOTSETTINGS
350
19
  3
ACAD_PLOTSTYLENAME
350
E
  3
ACAD_SCALELIST
350
47
  3
DWGPROPS
350
B2
  0
DICTIONARY
  5
D
102
{ACAD_REACTORS
330
C
102
}
330
C
100
AcDbDictionary
281
     1
  0
DICTIONARY
  5
1A
102
{ACAD_REACTORS
330
C
102
}
330
C
100
AcDbDictionary
281
     1
  3
Layout1
350
1E
  3
Layout2
350
26
  3
Model
350
22
  0
DICTIONARY
  5
17
102
{ACAD_REACTORS
330
C
102
}
330
C
100
AcDbDictionary
281
     1
  3
Standard
350
18
  0
DICTIONARY
  5
19
102
{ACAD_REACTORS
330
C
102
}
330
C
100
AcDbDictionary
281
     1
  0
ACDBDICTIONARYWDFLT
  5
E
102
{ACAD_REACTORS
330
C
102
}
330
C
100
AcDbDictionary
281
     1
  3
Normal
350
F
100
AcDbDictionaryWithDefault
340
F
  0
DICTIONARY
  5
47
102
{ACAD_REACTORS
330
C
102
}
330
C
100
AcDbDictionary
281
     1
  3
A0
350
48
  3
A1
350
49
  3
A2
350
4A
  3
A3
350
4B
  3
A4
350
4C
  3
A5
350
4D
  3
A6
350
4E
  3
A7
350
4F
  3
A8
350
50
  3
A9
350
51
  3
B0
350
52
  3
B1
350
53
  3
B2
350
54
  3
B3
350
55
  3
B4
350
56
  3
B5
350
57
  3
B6
350
58
  3
B7
350
59
  3
B8
350
5A
  3
B9
350
5B
  3
C0
350
5C
  3
C1
350
5D
  3
C2
350
5E
  3
C3
350
5F
  3
C4
350
60
  3
C5
350
61
  3
C6
350
62
  3
C7
350
63
  3
C8
350
64
  3
C9
350
65
  3
D0
350
66
  3
D1
350
67
  3
D2
350
68
  0
XRECORD
  5
B2
102
{ACAD_REACTORS
330
C
102
}
330
C
100
AcDbXrecord
280
     1
  1
DWGPROPS COOKIE
  2

  3

  4

  6

  7

  8
b.kav
  9

300
=
301
=
302
=
303
=
304
=
305
=
306
=
307
=
308
=
309
=
 40
0.0
 41
2460697.416045648
 42
2460697.416045833
  1

 90
        0
  0
LAYOUT
  5
1E
102
{ACAD_REACTORS
330
1A
102
}
330
1A
100
AcDbPlotSettings
  1

  2
none_device
  4

  6

 40
0.0
 41
0.0
 42
0.0
 43
0.0
 44
0.0
 45
0.0
 46
0.0
 47
0.0
 48
0.0
 49
0.0
140
0.0
141
0.0
142
1.0
143
1.0
 70
   688
 72
     1
 73
     0
 74
     5
  7

 75
    16
147
1.0
148
0.0
149
0.0
100
AcDbLayout
  1
Layout1
 70
     1
 71
     1
 10
0.0
 20
0.0
 11
420.0
 21
297.0
 12
0.0
 22
0.0
 32
0.0
 14
1.0000000000E+20
 24
1.0000000000E+20
 34
1.0000000000E+20
 15
-1.0000000000E+20
 25
-1.0000000000E+20
 35
-1.0000000000E+20
146
0.0
 13
0.0
 23
0.0
 33
0.0
 16
1.0
 26
0.0
 36
0.0
 17
0.0
 27
1.0
 37
0.0
 76
     0
330
1B
  0
LAYOUT
  5
26
102
{ACAD_REACTORS
330
1A
102
}
330
1A
100
AcDbPlotSettings
  1

  2
none_device
  4

  6

 40
0.0
 41
0.0
 42
0.0
 43
0.0
 44
0.0
 45
0.0
 46
0.0
 47
0.0
 48
0.0
 49
0.0
140
0.0
141
0.0
142
1.0
143
1.0
 70
   688
 72
     1
 73
     0
 74
     5
  7

 75
    16
147
1.0
148
0.0
149
0.0
100
AcDbLayout
  1
Layout2
 70
     1
 71
     2
 10
0.0
 20
0.0
 11
0.0
 21
0.0
 12
0.0
 22
0.0
 32
0.0
 14
0.0
 24
0.0
 34
0.0
 15
0.0
 25
0.0
 35
0.0
146
0.0
 13
0.0
 23
0.0
 33
0.0
 16
1.0
 26
0.0
 36
0.0
 17
0.0
 27
1.0
 37
0.0
 76
     0
330
23
  0
LAYOUT
  5
22
102
{ACAD_REACTORS
330
1A
102
}
330
1A
100
AcDbPlotSettings
  1

  2
none_device
  4
Letter_(8.50_x_11.00_Inches)
  6

 40
6.35
 41
6.35
 42
6.35000508
 43
6.35000508
 44
215.9
 45
279.4
 46
0.0
 47
0.0
 48
0.0
 49
0.0
140
0.0
141
0.0
142
1.0
143
1.0
 70
  1712
 72
     1
 73
     0
 74
     0
  7

 75
     0
147
1.0
148
0.0
149
0.0
100
AcDbLayout
  1
Model
 70
     1
 71
     0
 10
0.0
 20
0.0
 11
279.4
 21
215.9
 12
0.0
 22
0.0
 32
0.0
 14
0.0
 24
0.0
 34
0.0
 15
279.4
 25
215.9
 35
0.0
146
0.0
 13
0.0
 23
0.0
 33
0.0
 16
1.0
 26
0.0
 36
0.0
 17
0.0
 27
1.0
 37
0.0
 76
     0
330
1F
331
29
  0
MLINESTYLE
  5
18
102
{ACAD_REACTORS
330
17
102
}
330
17
100
AcDbMlineStyle
  2
Standard
 70
     0
  3

 62
   256
 51
90.0
 52
90.0
 71
     2
 49
0.5
 62
   256
  6
BYLAYER
 49
-0.5
 62
   256
  6
BYLAYER
  0
ACDBPLACEHOLDER
  5
F
102
{ACAD_REACTORS
330
E
102
}
330
E
  0
SCALE
  5
48
102
{ACAD_REACTORS
330
47
102
}
330
47
100
AcDbScale
 70
     0
300
1:1
140
1.0
141
1.0
290
     1
  0
SCALE
  5
49
102
{ACAD_REACTORS
330
47
102
}
330
47
100
AcDbScale
 70
     0
300
1:2
140
1.0
141
2.0
290
     0
  0
SCALE
  5
4A
102
{ACAD_REACTORS
330
47
102
}
330
47
100
AcDbScale
 70
     0
300
1:4
140
1.0
141
4.0
290
     0
  0
SCALE
  5
4B
102
{ACAD_REACTORS
330
47
102
}
330
47
100
AcDbScale
 70
     0
300
1:5
140
1.0
141
5.0
290
     0
  0
SCALE
  5
4C
102
{ACAD_REACTORS
330
47
102
}
330
47
100
AcDbScale
 70
     0
300
1:8
140
1.0
141
8.0
290
     0
  0
SCALE
  5
4D
102
{ACAD_REACTORS
330
47
102
}
330
47
100
AcDbScale
 70
     0
300
1:10
140
1.0
141
10.0
290
     0
  0
SCALE
  5
4E
102
{ACAD_REACTORS
330
47
102
}
330
47
100
AcDbScale
 70
     0
300
1:16
140
1.0
141
16.0
290
     0
  0
SCALE
  5
4F
102
{ACAD_REACTORS
330
47
102
}
330
47
100
AcDbScale
 70
     0
300
1:20
140
1.0
141
20.0
290
     0
  0
SCALE
  5
50
102
{ACAD_REACTORS
330
47
102
}
330
47
100
AcDbScale
 70
     0
300
1:30
140
1.0
141
30.0
290
     0
  0
SCALE
  5
51
102
{ACAD_REACTORS
330
47
102
}
330
47
100
AcDbScale
 70
     0
300
1:40
140
1.0
141
40.0
290
     0
  0
SCALE
  5
52
102
{ACAD_REACTORS
330
47
102
}
330
47
100
AcDbScale
 70
     0
300
1:50
140
1.0
141
50.0
290
     0
  0
SCALE
  5
53
102
{ACAD_REACTORS
330
47
102
}
330
47
100
AcDbScale
 70
     0
300
1:100
140
1.0
141
100.0
290
     0
  0
SCALE
  5
54
102
{ACAD_REACTORS
330
47
102
}
330
47
100
AcDbScale
 70
     0
300
2:1
140
2.0
141
1.0
290
     0
  0
SCALE
  5
55
102
{ACAD_REACTORS
330
47
102
}
330
47
100
AcDbScale
 70
     0
300
4:1
140
4.0
141
1.0
290
     0
  0
SCALE
  5
56
102
{ACAD_REACTORS
330
47
102
}
330
47
100
AcDbScale
 70
     0
300
8:1
140
8.0
141
1.0
290
     0
  0
SCALE
  5
57
102
{ACAD_REACTORS
330
47
102
}
330
47
100
AcDbScale
 70
     0
300
10:1
140
10.0
141
1.0
290
     0
  0
SCALE
  5
58
102
{ACAD_REACTORS
330
47
102
}
330
47
100
AcDbScale
 70
     0
300
100:1
140
100.0
141
1.0
290
     0
  0
SCALE
  5
59
102
{ACAD_REACTORS
330
47
102
}
330
47
100
AcDbScale
 70
     0
300
1/128" = 1'-0"
140
0.0078125
141
12.0
290
     0
  0
SCALE
  5
5A
102
{ACAD_REACTORS
330
47
102
}
330
47
100
AcDbScale
 70
     0
300
1/64" = 1'-0"
140
0.015625
141
12.0
290
     0
  0
SCALE
  5
5B
102
{ACAD_REACTORS
330
47
102
}
330
47
100
AcDbScale
 70
     0
300
1/32" = 1'-0"
140
0.03125
141
12.0
290
     0
  0
SCALE
  5
5C
102
{ACAD_REACTORS
330
47
102
}
330
47
100
AcDbScale
 70
     0
300
1/16" = 1'-0"
140
0.0625
141
12.0
290
     0
  0
SCALE
  5
5D
102
{ACAD_REACTORS
330
47
102
}
330
47
100
AcDbScale
 70
     0
300
3/32" = 1'-0"
140
0.09375
141
12.0
290
     0
  0
SCALE
  5
5E
102
{ACAD_REACTORS
330
47
102
}
330
47
100
AcDbScale
 70
     0
300
1/8" = 1'-0"
140
0.125
141
12.0
290
     0
  0
SCALE
  5
5F
102
{ACAD_REACTORS
330
47
102
}
330
47
100
AcDbScale
 70
     0
300
3/16" = 1'-0"
140
0.1875
141
12.0
290
     0
  0
SCALE
  5
60
102
{ACAD_REACTORS
330
47
102
}
330
47
100
AcDbScale
 70
     0
300
1/4" = 1'-0"
140
0.25
141
12.0
290
     0
  0
SCALE
  5
61
102
{ACAD_REACTORS
330
47
102
}
330
47
100
AcDbScale
 70
     0
300
3/8" = 1'-0"
140
0.375
141
12.0
290
     0
  0
SCALE
  5
62
102
{ACAD_REACTORS
330
47
102
}
330
47
100
AcDbScale
 70
     0
300
1/2" = 1'-0"
140
0.5
141
12.0
290
     0
  0
SCALE
  5
63
102
{ACAD_REACTORS
330
47
102
}
330
47
100
AcDbScale
 70
     0
300
3/4" = 1'-0"
140
0.75
141
12.0
290
     0
  0
SCALE
  5
64
102
{ACAD_REACTORS
330
47
102
}
330
47
100
AcDbScale
 70
     0
300
1" = 1'-0"
140
1.0
141
12.0
290
     0
  0
SCALE
  5
65
102
{ACAD_REACTORS
330
47
102
}
330
47
100
AcDbScale
 70
     0
300
1-1/2" = 1'-0"
140
1.5
141
12.0
290
     0
  0
SCALE
  5
66
102
{ACAD_REACTORS
330
47
102
}
330
47
100
AcDbScale
 70
     0
300
3" = 1'-0"
140
3.0
141
12.0
290
     0
  0
SCALE
  5
67
102
{ACAD_REACTORS
330
47
102
}
330
47
100
AcDbScale
 70
     0
300
6" = 1'-0"
140
6.0
141
12.0
290
     0
  0
SCALE
  5
68
102
{ACAD_REACTORS
330
47
102
}
330
47
100
AcDbScale
 70
     0
300
1'-0" = 1'-0"
140
12.0
141
12.0
290
     0
  0
ENDSEC
  0
EOF
